ISO-10303-21;
HEADER;
FILE_DESCRIPTION (( 'STEP AP214' ),
    '1' );
FILE_NAME ('pakiet6s.STEP',
    '2025-04-03T16:22:00',
    ( '' ),
    ( '' ),
    'SwSTEP 2.0',
    'SolidWorks 2023',
    '' );
FILE_SCHEMA (( 'AUTOMOTIVE_DESIGN' ));
ENDSEC;

DATA;
#1 = ORIENTED_EDGE ( 'NONE', *, *, #295, .F. ) ;
#2 =( GEOMETRIC_REPRESENTATION_CONTEXT ( 3 ) GLOBAL_UNCERTAINTY_ASSIGNED_CONTEXT ( ( #228 ) ) GLOBAL_UNIT_ASSIGNED_CONTEXT ( ( #220, #184, #133 ) ) REPRESENTATION_CONTEXT ( 'NONE', 'WORKASPACE' ) );
#3 = AXIS2_PLACEMENT_3D ( 'NONE', #138, #134, #72 ) ;
#4 = APPLICATION_PROTOCOL_DEFINITION ( 'draft international standard', 'automotive_design', 1998, #78 ) ;
#5 = DIRECTION ( 'NONE',  ( -0.000000000000000000, 1.000000000000000000, -0.000000000000000000 ) ) ;
#6 = EDGE_CURVE ( 'NONE', #198, #205, #166, .T. ) ;
#7 = PLANE ( 'NONE',  #197 ) ;
#8 = AXIS2_PLACEMENT_3D ( 'NONE', #209, #190, #155 ) ;
#9 = FACE_OUTER_BOUND ( 'NONE', #280, .T. ) ;
#10 =( LENGTH_UNIT ( ) NAMED_UNIT ( * ) SI_UNIT ( .MILLI., .METRE. ) );
#11 = CARTESIAN_POINT ( 'NONE',  ( -24.44554177241415260, -22.30100222717149450, 136.5000000000000000 ) ) ;
#12 = AXIS2_PLACEMENT_3D ( 'NONE', #88, #183, #115 ) ;
#13 = DIRECTION ( 'NONE',  ( -0.000000000000000000, 0.000000000000000000, 1.000000000000000000 ) ) ;
#14 = DIRECTION ( 'NONE',  ( 0.000000000000000000, -0.000000000000000000, 1.000000000000000000 ) ) ;
#15 = VECTOR ( 'NONE', #192, 1000.000000000000000 ) ;
#16 = CARTESIAN_POINT ( 'NONE',  ( -24.44554177241415260, 19.69899777282850906, 128.5000000000000000 ) ) ;
#17 = DIRECTION ( 'NONE',  ( -0.000000000000000000, -1.000000000000000000, -0.000000000000000000 ) ) ;
#18 = CARTESIAN_POINT ( 'NONE',  ( 38.85445822758584455, -22.30100222717149450, 0.000000000000000000 ) ) ;
#19 = CARTESIAN_POINT ( 'NONE',  ( -24.44554177241415260, 19.69899777282850906, 136.5000000000000000 ) ) ;
#20 = ORIENTED_EDGE ( 'NONE', *, *, #45, .F. ) ;
#21 = EDGE_LOOP ( 'NONE', ( #200, #81, #20, #259 ) ) ;
#22 = VERTEX_POINT ( 'NONE', #16 ) ;
#23 = EDGE_CURVE ( 'NONE', #229, #198, #143, .T. ) ;
#24 = ORIENTED_EDGE ( 'NONE', *, *, #82, .F. ) ;
#25 = ORIENTED_EDGE ( 'NONE', *, *, #89, .T. ) ;
#26 = VECTOR ( 'NONE', #118, 1000.000000000000000 ) ;
#27 = ORIENTED_EDGE ( 'NONE', *, *, #125, .T. ) ;
#28 = CARTESIAN_POINT ( 'NONE',  ( 0.000000000000000000, 0.000000000000000000, 0.000000000000000000 ) ) ;
#29 = CARTESIAN_POINT ( 'NONE',  ( 35.85445822758584455, 19.69899777282850906, 136.5000000000000000 ) ) ;
#30 = EDGE_CURVE ( 'NONE', #173, #327, #195, .T. ) ;
#31 = FACE_OUTER_BOUND ( 'NONE', #172, .T. ) ;
#32 = LINE ( 'NONE', #217, #231 ) ;
#33 = CARTESIAN_POINT ( 'NONE',  ( -16.44554177241415260, 19.69899777282850906, 128.5000000000000000 ) ) ;
#34 = FACE_OUTER_BOUND ( 'NONE', #49, .T. ) ;
#35 = CARTESIAN_POINT ( 'NONE',  ( -16.44554177241415260, 19.69899777282850906, 136.5000000000000000 ) ) ;
#36 = CARTESIAN_POINT ( 'NONE',  ( -16.44554177241415260, 0.000000000000000000, 128.5000000000000000 ) ) ;
#37 = DIRECTION ( 'NONE',  ( -0.000000000000000000, -0.000000000000000000, -1.000000000000000000 ) ) ;
#38 = CARTESIAN_POINT ( 'NONE',  ( -24.44554177241415260, -22.30100222717149450, 128.5000000000000000 ) ) ;
#39 = DIRECTION ( 'NONE',  ( 0.000000000000000000, 0.000000000000000000, 1.000000000000000000 ) ) ;
#40 = AXIS2_PLACEMENT_3D ( 'NONE', #216, #65, #57 ) ;
#41 = EDGE_CURVE ( 'NONE', #225, #229, #96, .T. ) ;
#42 = ORIENTED_EDGE ( 'NONE', *, *, #139, .F. ) ;
#43 = VERTEX_POINT ( 'NONE', #255 ) ;
#44 = ORIENTED_EDGE ( 'NONE', *, *, #203, .F. ) ;
#45 = EDGE_CURVE ( 'NONE', #148, #46, #189, .T. ) ;
#46 = VERTEX_POINT ( 'NONE', #94 ) ;
#47 = EDGE_CURVE ( 'NONE', #55, #79, #250, .T. ) ;
#48 = ORIENTED_EDGE ( 'NONE', *, *, #265, .T. ) ;
#49 = EDGE_LOOP ( 'NONE', ( #324, #121, #279, #256 ) ) ;
#50 = COLOUR_RGB ( '',0.7921568627450980005, 0.8196078431372548767, 0.9333333333333333481 ) ;
#51 = APPLICATION_PROTOCOL_DEFINITION ( 'draft international standard', 'automotive_design', 1998, #267 ) ;
#52 = VECTOR ( 'NONE', #111, 1000.000000000000000 ) ;
#53 = CIRCLE ( 'NONE', #12, 8.000000000000007105 ) ;
#54 = CLOSED_SHELL ( 'NONE', ( #101, #254, #199, #230, #196, #176, #263, #236, #223, #95 ) ) ;
#55 = VERTEX_POINT ( 'NONE', #18 ) ;
#56 = EDGE_CURVE ( 'NONE', #150, #43, #249, .T. ) ;
#57 = DIRECTION ( 'NONE',  ( 0.000000000000000000, 0.000000000000000000, -1.000000000000000000 ) ) ;
#58 = PRODUCT_DEFINITION ( 'UNKNOWN', '', #315, #77 ) ;
#59 = CARTESIAN_POINT ( 'NONE',  ( 0.000000000000000000, 0.000000000000000000, 0.000000000000000000 ) ) ;
#60 = FACE_OUTER_BOUND ( 'NONE', #170, .T. ) ;
#61 = FACE_OUTER_BOUND ( 'NONE', #262, .T. ) ;
#62 = DIRECTION ( 'NONE',  ( 0.000000000000000000, 1.000000000000000000, 0.000000000000000000 ) ) ;
#63 = CARTESIAN_POINT ( 'NONE',  ( 43.85445822758584455, -22.30100222717149450, 5.000000000000004441 ) ) ;
#64 = PRODUCT_DEFINITION_SHAPE ( 'NONE', 'NONE',  #58 ) ;
#65 = DIRECTION ( 'NONE',  ( 0.000000000000000000, -1.000000000000000000, 0.000000000000000000 ) ) ;
#66 = PLANE ( 'NONE',  #142 ) ;
#67 = CARTESIAN_POINT ( 'NONE',  ( -24.44554177241415260, -22.30100222717149450, 0.000000000000000000 ) ) ;
#68 = LINE ( 'NONE', #272, #201 ) ;
#69 = DIRECTION ( 'NONE',  ( 0.000000000000000000, 0.000000000000000000, 1.000000000000000000 ) ) ;
#70 = CARTESIAN_POINT ( 'NONE',  ( 38.85445822758584455, 19.69899777282850906, 5.000000000000004441 ) ) ;
#71 = EDGE_CURVE ( 'NONE', #225, #150, #153, .T. ) ;
#72 = DIRECTION ( 'NONE',  ( 0.000000000000000000, 0.000000000000000000, 1.000000000000000000 ) ) ;
#73 = AXIS2_PLACEMENT_3D ( 'NONE', #241, #110, #157 ) ;
#74 = ORIENTED_EDGE ( 'NONE', *, *, #47, .T. ) ;
#75 = ORIENTED_EDGE ( 'NONE', *, *, #23, .F. ) ;
#76 = VERTEX_POINT ( 'NONE', #244 ) ;
#77 = PRODUCT_DEFINITION_CONTEXT ( 'detailed design', #78, 'design' ) ;
#78 = APPLICATION_CONTEXT ( 'automotive_design' ) ;
#79 = VERTEX_POINT ( 'NONE', #63 ) ;
#80 = PRODUCT_RELATED_PRODUCT_CATEGORY ( 'part', '', ( #237 ) ) ;
#81 = ORIENTED_EDGE ( 'NONE', *, *, #295, .T. ) ;
#82 = EDGE_CURVE ( 'NONE', #205, #225, #221, .T. ) ;
#83 = CARTESIAN_POINT ( 'NONE',  ( 38.85445822758584455, 0.000000000000000000, 0.000000000000000000 ) ) ;
#84 = DIRECTION ( 'NONE',  ( 0.000000000000000000, 0.000000000000000000, -1.000000000000000000 ) ) ;
#85 = AXIS2_PLACEMENT_3D ( 'NONE', #36, #112, #296 ) ;
#86 = CARTESIAN_POINT ( 'NONE',  ( 38.85445822758584455, 19.69899777282850906, 0.000000000000000000 ) ) ;
#87 = AXIS2_PLACEMENT_3D ( 'NONE', #70, #294, #39 ) ;
#88 = CARTESIAN_POINT ( 'NONE',  ( -16.44554177241415260, -22.30100222717149450, 128.5000000000000000 ) ) ;
#89 = EDGE_CURVE ( 'NONE', #79, #43, #161, .T. ) ;
#90 = SURFACE_SIDE_STYLE ('',( #238 ) ) ;
#91 = CARTESIAN_POINT ( 'NONE',  ( -19.44554177241414905, 0.000000000000000000, 0.000000000000000000 ) ) ;
#92 = DIRECTION ( 'NONE',  ( 1.000000000000000000, 0.000000000000000000, 0.000000000000000000 ) ) ;
#93 =( NAMED_UNIT ( * ) SI_UNIT ( $, .STERADIAN. ) SOLID_ANGLE_UNIT ( ) );
#94 = CARTESIAN_POINT ( 'NONE',  ( -24.44554177241415260, -22.30100222717149450, 5.000000000000004441 ) ) ;
#95 = ADVANCED_FACE ( 'NONE', ( #34 ), #113, .T. ) ;
#96 = LINE ( 'NONE', #117, #114 ) ;
#97 = EDGE_LOOP ( 'NONE', ( #326, #226, #27, #74, #306, #304, #227, #305 ) ) ;
#98 = ADVANCED_BREP_SHAPE_REPRESENTATION ( 'pakiet6s', ( #234, #277 ), #2 ) ;
#99 = EDGE_LOOP ( 'NONE', ( #104, #224, #302, #276 ) ) ;
#100 = AXIS2_PLACEMENT_3D ( 'NONE', #59, #310, #159 ) ;
#101 = ADVANCED_FACE ( 'NONE', ( #270 ), #222, .F. ) ;
#102 = ORIENTED_EDGE ( 'NONE', *, *, #174, .F. ) ;
#103 = VECTOR ( 'NONE', #92, 1000.000000000000000 ) ;
#104 = ORIENTED_EDGE ( 'NONE', *, *, #125, .F. ) ;
#105 = ORIENTED_EDGE ( 'NONE', *, *, #181, .T. ) ;
#106 = SHAPE_DEFINITION_REPRESENTATION ( #64, #98 ) ;
#107 = DIRECTION ( 'NONE',  ( -1.000000000000000000, 0.000000000000000000, 0.000000000000000000 ) ) ;
#108 = CARTESIAN_POINT ( 'NONE',  ( -24.44554177241415260, 19.69899777282850906, 136.5000000000000000 ) ) ;
#109 = PRESENTATION_LAYER_ASSIGNMENT (  '', '', ( #309 ) ) ;
#110 = DIRECTION ( 'NONE',  ( 0.000000000000000000, -1.000000000000000000, 0.000000000000000000 ) ) ;
#111 = DIRECTION ( 'NONE',  ( -0.000000000000000000, 1.000000000000000000, -0.000000000000000000 ) ) ;
#112 = DIRECTION ( 'NONE',  ( 0.000000000000000000, 1.000000000000000000, 0.000000000000000000 ) ) ;
#113 = CYLINDRICAL_SURFACE ( 'NONE', #87, 5.000000000000000888 ) ;
#114 = VECTOR ( 'NONE', #119, 1000.000000000000000 ) ;
#115 = DIRECTION ( 'NONE',  ( 0.000000000000000000, 0.000000000000000000, 1.000000000000000000 ) ) ;
#116 = LINE ( 'NONE', #268, #26 ) ;
#117 = CARTESIAN_POINT ( 'NONE',  ( -24.44554177241415260, 19.69899777282850906, 136.5000000000000000 ) ) ;
#118 = DIRECTION ( 'NONE',  ( -0.000000000000000000, -0.000000000000000000, -1.000000000000000000 ) ) ;
#119 = DIRECTION ( 'NONE',  ( -1.000000000000000000, -0.000000000000000000, -0.000000000000000000 ) ) ;
#120 = CARTESIAN_POINT ( 'NONE',  ( 43.85445822758584455, 19.69899777282850906, 136.5000000000000000 ) ) ;
#121 = ORIENTED_EDGE ( 'NONE', *, *, #158, .F. ) ;
#122 = EDGE_LOOP ( 'NONE', ( #151, #207, #42, #210, #260, #127, #208, #281 ) ) ;
#123 = ORIENTED_EDGE ( 'NONE', *, *, #41, .T. ) ;
#124 = ORIENTED_EDGE ( 'NONE', *, *, #245, .F. ) ;
#125 = EDGE_CURVE ( 'NONE', #206, #55, #317, .T. ) ;
#126 = CIRCLE ( 'NONE', #284, 8.000000000000007105 ) ;
#127 = ORIENTED_EDGE ( 'NONE', *, *, #71, .T. ) ;
#128 = PRODUCT_CONTEXT ( 'NONE', #267, 'mechanical' ) ;
#129 = FILL_AREA_STYLE_COLOUR ( '', #50 ) ;
#130 = CARTESIAN_POINT ( 'NONE',  ( -19.44554177241414905, 19.69899777282850906, 5.000000000000004441 ) ) ;
#131 = LINE ( 'NONE', #293, #145 ) ;
#132 = PLANE ( 'NONE',  #325 ) ;
#133 =( NAMED_UNIT ( * ) SI_UNIT ( $, .STERADIAN. ) SOLID_ANGLE_UNIT ( ) );
#134 = DIRECTION ( 'NONE',  ( -0.000000000000000000, -1.000000000000000000, -0.000000000000000000 ) ) ;
#135 = FACE_OUTER_BOUND ( 'NONE', #122, .T. ) ;
#136 =( NAMED_UNIT ( * ) PLANE_ANGLE_UNIT ( ) SI_UNIT ( $, .RADIAN. ) );
#137 = VECTOR ( 'NONE', #179, 1000.000000000000000 ) ;
#138 = CARTESIAN_POINT ( 'NONE',  ( 38.85445822758584455, -22.30100222717149450, 5.000000000000004441 ) ) ;
#139 = EDGE_CURVE ( 'NONE', #22, #76, #68, .T. ) ;
#140 = CARTESIAN_POINT ( 'NONE',  ( -19.44554177241414905, -22.30100222717149450, 5.000000000000004441 ) ) ;
#141 = CARTESIAN_POINT ( 'NONE',  ( 43.85445822758584455, 19.69899777282850906, 128.5000000000000000 ) ) ;
#142 = AXIS2_PLACEMENT_3D ( 'NONE', #248, #62, #14 ) ;
#143 = LINE ( 'NONE', #185, #146 ) ;
#144 = EDGE_LOOP ( 'NONE', ( #175, #147, #202, #75 ) ) ;
#145 = VECTOR ( 'NONE', #191, 1000.000000000000000 ) ;
#146 = VECTOR ( 'NONE', #275, 1000.000000000000000 ) ;
#147 = ORIENTED_EDGE ( 'NONE', *, *, #312, .F. ) ;
#148 = VERTEX_POINT ( 'NONE', #38 ) ;
#149 = ORIENTED_EDGE ( 'NONE', *, *, #23, .T. ) ;
#150 = VERTEX_POINT ( 'NONE', #141 ) ;
#151 = ORIENTED_EDGE ( 'NONE', *, *, #30, .T. ) ;
#152 = AXIS2_PLACEMENT_3D ( 'NONE', #33, #5, #182 ) ;
#153 = CIRCLE ( 'NONE', #186, 8.000000000000007105 ) ;
#154 = ORIENTED_EDGE ( 'NONE', *, *, #71, .F. ) ;
#155 = DIRECTION ( 'NONE',  ( 0.000000000000000000, 0.000000000000000000, -1.000000000000000000 ) ) ;
#156 = DIRECTION ( 'NONE',  ( 0.000000000000000000, -1.000000000000000000, 0.000000000000000000 ) ) ;
#157 = DIRECTION ( 'NONE',  ( 0.000000000000000000, 0.000000000000000000, -1.000000000000000000 ) ) ;
#158 = EDGE_CURVE ( 'NONE', #173, #55, #162, .T. ) ;
#159 = DIRECTION ( 'NONE',  ( 1.000000000000000000, 0.000000000000000000, 0.000000000000000000 ) ) ;
#160 = SURFACE_STYLE_USAGE ( .BOTH. , #90 ) ;
#161 = LINE ( 'NONE', #291, #15 ) ;
#162 = LINE ( 'NONE', #83, #316 ) ;
#163 = DIRECTION ( 'NONE',  ( 1.000000000000000000, 0.000000000000000000, 0.000000000000000000 ) ) ;
#164 = CARTESIAN_POINT ( 'NONE',  ( -19.44554177241414905, 19.69899777282850906, 0.000000000000000000 ) ) ;
#165 = CARTESIAN_POINT ( 'NONE',  ( -24.44554177241415260, 19.69899777282850906, 0.000000000000000000 ) ) ;
#166 = LINE ( 'NONE', #298, #103 ) ;
#167 = CIRCLE ( 'NONE', #8, 5.000000000000000000 ) ;
#168 = CARTESIAN_POINT ( 'NONE',  ( 35.85445822758584455, 19.69899777282850906, 128.5000000000000000 ) ) ;
#169 = EDGE_CURVE ( 'NONE', #198, #148, #53, .T. ) ;
#170 = EDGE_LOOP ( 'NONE', ( #124, #300, #154, #24 ) ) ;
#171 = AXIS2_PLACEMENT_3D ( 'NONE', #19, #322, #215 ) ;
#172 = EDGE_LOOP ( 'NONE', ( #258, #178, #123, #149 ) ) ;
#173 = VERTEX_POINT ( 'NONE', #86 ) ;
#174 = EDGE_CURVE ( 'NONE', #206, #327, #266, .T. ) ;
#175 = ORIENTED_EDGE ( 'NONE', *, *, #218, .F. ) ;
#176 = ADVANCED_FACE ( 'NONE', ( #243 ), #271, .F. ) ;
#177 = CIRCLE ( 'NONE', #301, 5.000000000000000000 ) ;
#178 = ORIENTED_EDGE ( 'NONE', *, *, #82, .T. ) ;
#179 = DIRECTION ( 'NONE',  ( -0.000000000000000000, -1.000000000000000000, -0.000000000000000000 ) ) ;
#180 = CIRCLE ( 'NONE', #152, 8.000000000000007105 ) ;
#181 = EDGE_CURVE ( 'NONE', #150, #257, #283, .T. ) ;
#182 = DIRECTION ( 'NONE',  ( 0.000000000000000000, 0.000000000000000000, -1.000000000000000000 ) ) ;
#183 = DIRECTION ( 'NONE',  ( -0.000000000000000000, -1.000000000000000000, -0.000000000000000000 ) ) ;
#184 =( NAMED_UNIT ( * ) PLANE_ANGLE_UNIT ( ) SI_UNIT ( $, .RADIAN. ) );
#185 = CARTESIAN_POINT ( 'NONE',  ( -16.44554177241415260, -22.30100222717149450, 136.5000000000000000 ) ) ;
#186 = AXIS2_PLACEMENT_3D ( 'NONE', #168, #273, #320 ) ;
#187 = CARTESIAN_POINT ( 'NONE',  ( 0.000000000000000000, 0.000000000000000000, 136.5000000000000000 ) ) ;
#188 = CARTESIAN_POINT ( 'NONE',  ( 35.85445822758584455, -22.30100222717149450, 128.5000000000000000 ) ) ;
#189 = LINE ( 'NONE', #11, #303 ) ;
#190 = DIRECTION ( 'NONE',  ( -0.000000000000000000, 1.000000000000000000, -0.000000000000000000 ) ) ;
#191 = DIRECTION ( 'NONE',  ( -0.000000000000000000, 1.000000000000000000, -0.000000000000000000 ) ) ;
#192 = DIRECTION ( 'NONE',  ( 0.000000000000000000, 1.000000000000000000, 0.000000000000000000 ) ) ;
#193 = CYLINDRICAL_SURFACE ( 'NONE', #85, 8.000000000000007105 ) ;
#194 = DIRECTION ( 'NONE',  ( -0.000000000000000000, -0.000000000000000000, -1.000000000000000000 ) ) ;
#195 = LINE ( 'NONE', #165, #282 ) ;
#196 = ADVANCED_FACE ( 'NONE', ( #31 ), #132, .T. ) ;
#197 = AXIS2_PLACEMENT_3D ( 'NONE', #108, #156, #318 ) ;
#198 = VERTEX_POINT ( 'NONE', #286 ) ;
#199 = ADVANCED_FACE ( 'NONE', ( #61 ), #289, .F. ) ;
#200 = ORIENTED_EDGE ( 'NONE', *, *, #139, .T. ) ;
#201 = VECTOR ( 'NONE', #37, 1000.000000000000000 ) ;
#202 = ORIENTED_EDGE ( 'NONE', *, *, #169, .F. ) ;
#203 = EDGE_CURVE ( 'NONE', #327, #76, #177, .T. ) ;
#204 = UNCERTAINTY_MEASURE_WITH_UNIT (LENGTH_MEASURE( 1.000000000000000082E-05 ), #10, 'distance_accuracy_value', 'NONE');
#205 = VERTEX_POINT ( 'NONE', #292 ) ;
#206 = VERTEX_POINT ( 'NONE', #307 ) ;
#207 = ORIENTED_EDGE ( 'NONE', *, *, #203, .T. ) ;
#208 = ORIENTED_EDGE ( 'NONE', *, *, #56, .T. ) ;
#209 = CARTESIAN_POINT ( 'NONE',  ( 38.85445822758584455, 19.69899777282850906, 5.000000000000004441 ) ) ;
#210 = ORIENTED_EDGE ( 'NONE', *, *, #218, .T. ) ;
#211 =( GEOMETRIC_REPRESENTATION_CONTEXT ( 3 ) GLOBAL_UNCERTAINTY_ASSIGNED_CONTEXT ( ( #204 ) ) GLOBAL_UNIT_ASSIGNED_CONTEXT ( ( #10, #136, #93 ) ) REPRESENTATION_CONTEXT ( 'NONE', 'WORKASPACE' ) );
#212 = FILL_AREA_STYLE ('',( #129 ) ) ;
#213 = DIRECTION ( 'NONE',  ( 0.000000000000000000, 0.000000000000000000, 1.000000000000000000 ) ) ;
#214 = FACE_OUTER_BOUND ( 'NONE', #144, .T. ) ;
#215 = DIRECTION ( 'NONE',  ( -0.000000000000000000, 0.000000000000000000, -1.000000000000000000 ) ) ;
#216 = CARTESIAN_POINT ( 'NONE',  ( -19.44554177241414905, 19.69899777282850906, 5.000000000000004441 ) ) ;
#217 = CARTESIAN_POINT ( 'NONE',  ( -24.44554177241415260, 19.69899777282850906, 5.000000000000004441 ) ) ;
#218 = EDGE_CURVE ( 'NONE', #22, #229, #180, .T. ) ;
#219 = DIRECTION ( 'NONE',  ( -0.000000000000000000, -0.000000000000000000, -1.000000000000000000 ) ) ;
#220 =( LENGTH_UNIT ( ) NAMED_UNIT ( * ) SI_UNIT ( .MILLI., .METRE. ) );
#221 = LINE ( 'NONE', #253, #278 ) ;
#222 = PLANE ( 'NONE',  #171 ) ;
#223 = ADVANCED_FACE ( 'NONE', ( #9 ), #313, .T. ) ;
#224 = ORIENTED_EDGE ( 'NONE', *, *, #174, .T. ) ;
#225 = VERTEX_POINT ( 'NONE', #29 ) ;
#226 = ORIENTED_EDGE ( 'NONE', *, *, #239, .T. ) ;
#227 = ORIENTED_EDGE ( 'NONE', *, *, #6, .F. ) ;
#228 = UNCERTAINTY_MEASURE_WITH_UNIT (LENGTH_MEASURE( 1.000000000000000082E-05 ), #220, 'distance_accuracy_value', 'NONE');
#229 = VERTEX_POINT ( 'NONE', #35 ) ;
#230 = ADVANCED_FACE ( 'NONE', ( #135 ), #7, .F. ) ;
#231 = VECTOR ( 'NONE', #319, 1000.000000000000000 ) ;
#232 = VECTOR ( 'NONE', #163, 1000.000000000000000 ) ;
#233 = EDGE_CURVE ( 'NONE', #43, #173, #167, .T. ) ;
#234 = MANIFOLD_SOLID_BREP ( 'Zaokraglenie3', #54 ) ;
#235 = DIRECTION ( 'NONE',  ( 1.000000000000000000, 0.000000000000000000, 0.000000000000000000 ) ) ;
#236 = ADVANCED_FACE ( 'NONE', ( #214 ), #193, .T. ) ;
#237 = PRODUCT ( 'pakiet6s', 'pakiet6s', '', ( #128 ) ) ;
#238 = SURFACE_STYLE_FILL_AREA ( #212 ) ;
#239 = EDGE_CURVE ( 'NONE', #46, #206, #261, .T. ) ;
#240 = DIRECTION ( 'NONE',  ( -0.000000000000000000, 1.000000000000000000, -0.000000000000000000 ) ) ;
#241 = CARTESIAN_POINT ( 'NONE',  ( 35.85445822758584455, 0.000000000000000000, 128.5000000000000000 ) ) ;
#242 = MECHANICAL_DESIGN_GEOMETRIC_PRESENTATION_REPRESENTATION (  '', ( #309 ), #211 ) ;
#243 = FACE_OUTER_BOUND ( 'NONE', #99, .T. ) ;
#244 = CARTESIAN_POINT ( 'NONE',  ( -24.44554177241415260, 19.69899777282850906, 5.000000000000004441 ) ) ;
#245 = EDGE_CURVE ( 'NONE', #257, #205, #126, .T. ) ;
#246 = AXIS2_PLACEMENT_3D ( 'NONE', #269, #107, #213 ) ;
#247 = DIRECTION ( 'NONE',  ( 1.000000000000000000, 0.000000000000000000, 0.000000000000000000 ) ) ;
#248 = CARTESIAN_POINT ( 'NONE',  ( -24.44554177241415260, -22.30100222717149450, 136.5000000000000000 ) ) ;
#249 = LINE ( 'NONE', #120, #251 ) ;
#250 = CIRCLE ( 'NONE', #3, 5.000000000000000888 ) ;
#251 = VECTOR ( 'NONE', #219, 1000.000000000000000 ) ;
#252 = FACE_OUTER_BOUND ( 'NONE', #97, .T. ) ;
#253 = CARTESIAN_POINT ( 'NONE',  ( 35.85445822758584455, 19.69899777282850906, 136.5000000000000000 ) ) ;
#254 = ADVANCED_FACE ( 'NONE', ( #252 ), #66, .F. ) ;
#255 = CARTESIAN_POINT ( 'NONE',  ( 43.85445822758584455, 19.69899777282850906, 5.000000000000004441 ) ) ;
#256 = ORIENTED_EDGE ( 'NONE', *, *, #89, .F. ) ;
#257 = VERTEX_POINT ( 'NONE', #274 ) ;
#258 = ORIENTED_EDGE ( 'NONE', *, *, #6, .T. ) ;
#259 = ORIENTED_EDGE ( 'NONE', *, *, #312, .T. ) ;
#260 = ORIENTED_EDGE ( 'NONE', *, *, #41, .F. ) ;
#261 = CIRCLE ( 'NONE', #299, 5.000000000000000888 ) ;
#262 = EDGE_LOOP ( 'NONE', ( #48, #25, #321, #105 ) ) ;
#263 = ADVANCED_FACE ( 'NONE', ( #60 ), #311, .T. ) ;
#264 = DIRECTION ( 'NONE',  ( 0.000000000000000000, 0.000000000000000000, 1.000000000000000000 ) ) ;
#265 = EDGE_CURVE ( 'NONE', #257, #79, #116, .T. ) ;
#266 = LINE ( 'NONE', #91, #52 ) ;
#267 = APPLICATION_CONTEXT ( 'automotive_design' ) ;
#268 = CARTESIAN_POINT ( 'NONE',  ( 43.85445822758584455, -22.30100222717149450, 136.5000000000000000 ) ) ;
#269 = CARTESIAN_POINT ( 'NONE',  ( 43.85445822758584455, 19.69899777282850906, 136.5000000000000000 ) ) ;
#270 = FACE_OUTER_BOUND ( 'NONE', #21, .T. ) ;
#271 = PLANE ( 'NONE',  #100 ) ;
#272 = CARTESIAN_POINT ( 'NONE',  ( -24.44554177241415260, 19.69899777282850906, 136.5000000000000000 ) ) ;
#273 = DIRECTION ( 'NONE',  ( -0.000000000000000000, 1.000000000000000000, -0.000000000000000000 ) ) ;
#274 = CARTESIAN_POINT ( 'NONE',  ( 43.85445822758584455, -22.30100222717149450, 128.5000000000000000 ) ) ;
#275 = DIRECTION ( 'NONE',  ( 0.000000000000000000, -1.000000000000000000, 0.000000000000000000 ) ) ;
#276 = ORIENTED_EDGE ( 'NONE', *, *, #158, .T. ) ;
#277 = AXIS2_PLACEMENT_3D ( 'NONE', #28, #264, #235 ) ;
#278 = VECTOR ( 'NONE', #297, 1000.000000000000000 ) ;
#279 = ORIENTED_EDGE ( 'NONE', *, *, #233, .F. ) ;
#280 = EDGE_LOOP ( 'NONE', ( #44, #102, #323, #1 ) ) ;
#281 = ORIENTED_EDGE ( 'NONE', *, *, #233, .T. ) ;
#282 = VECTOR ( 'NONE', #288, 1000.000000000000000 ) ;
#283 = LINE ( 'NONE', #308, #137 ) ;
#284 = AXIS2_PLACEMENT_3D ( 'NONE', #188, #287, #290 ) ;
#285 = DIRECTION ( 'NONE',  ( -0.000000000000000000, -1.000000000000000000, -0.000000000000000000 ) ) ;
#286 = CARTESIAN_POINT ( 'NONE',  ( -16.44554177241415260, -22.30100222717149450, 136.5000000000000000 ) ) ;
#287 = DIRECTION ( 'NONE',  ( -0.000000000000000000, -1.000000000000000000, -0.000000000000000000 ) ) ;
#288 = DIRECTION ( 'NONE',  ( -1.000000000000000000, -0.000000000000000000, -0.000000000000000000 ) ) ;
#289 = PLANE ( 'NONE',  #246 ) ;
#290 = DIRECTION ( 'NONE',  ( 0.000000000000000000, 0.000000000000000000, 1.000000000000000000 ) ) ;
#291 = CARTESIAN_POINT ( 'NONE',  ( 43.85445822758584455, 19.69899777282850906, 5.000000000000004441 ) ) ;
#292 = CARTESIAN_POINT ( 'NONE',  ( 35.85445822758584455, -22.30100222717149450, 136.5000000000000000 ) ) ;
#293 = CARTESIAN_POINT ( 'NONE',  ( -24.44554177241415260, 19.69899777282850906, 128.5000000000000000 ) ) ;
#294 = DIRECTION ( 'NONE',  ( 0.000000000000000000, 1.000000000000000000, 0.000000000000000000 ) ) ;
#295 = EDGE_CURVE ( 'NONE', #76, #46, #32, .T. ) ;
#296 = DIRECTION ( 'NONE',  ( 0.000000000000000000, 0.000000000000000000, 1.000000000000000000 ) ) ;
#297 = DIRECTION ( 'NONE',  ( 0.000000000000000000, 1.000000000000000000, -0.000000000000000000 ) ) ;
#298 = CARTESIAN_POINT ( 'NONE',  ( -24.44554177241415260, -22.30100222717149450, 136.5000000000000000 ) ) ;
#299 = AXIS2_PLACEMENT_3D ( 'NONE', #140, #17, #69 ) ;
#300 = ORIENTED_EDGE ( 'NONE', *, *, #181, .F. ) ;
#301 = AXIS2_PLACEMENT_3D ( 'NONE', #130, #240, #84 ) ;
#302 = ORIENTED_EDGE ( 'NONE', *, *, #30, .F. ) ;
#303 = VECTOR ( 'NONE', #194, 1000.000000000000000 ) ;
#304 = ORIENTED_EDGE ( 'NONE', *, *, #245, .T. ) ;
#305 = ORIENTED_EDGE ( 'NONE', *, *, #169, .T. ) ;
#306 = ORIENTED_EDGE ( 'NONE', *, *, #265, .F. ) ;
#307 = CARTESIAN_POINT ( 'NONE',  ( -19.44554177241414905, -22.30100222717149450, 0.000000000000000000 ) ) ;
#308 = CARTESIAN_POINT ( 'NONE',  ( 43.85445822758584455, -22.30100222717149450, 128.5000000000000000 ) ) ;
#309 = STYLED_ITEM ( 'NONE', ( #314 ), #234 ) ;
#310 = DIRECTION ( 'NONE',  ( -0.000000000000000000, 0.000000000000000000, 1.000000000000000000 ) ) ;
#311 = CYLINDRICAL_SURFACE ( 'NONE', #73, 8.000000000000007105 ) ;
#312 = EDGE_CURVE ( 'NONE', #148, #22, #131, .T. ) ;
#313 = CYLINDRICAL_SURFACE ( 'NONE', #40, 5.000000000000000000 ) ;
#314 = PRESENTATION_STYLE_ASSIGNMENT (( #160 ) ) ;
#315 = PRODUCT_DEFINITION_FORMATION_WITH_SPECIFIED_SOURCE ( 'ANY', '', #237, .NOT_KNOWN. ) ;
#316 = VECTOR ( 'NONE', #285, 1000.000000000000000 ) ;
#317 = LINE ( 'NONE', #67, #232 ) ;
#318 = DIRECTION ( 'NONE',  ( 0.000000000000000000, -0.000000000000000000, -1.000000000000000000 ) ) ;
#319 = DIRECTION ( 'NONE',  ( 0.000000000000000000, -1.000000000000000000, 0.000000000000000000 ) ) ;
#320 = DIRECTION ( 'NONE',  ( 0.000000000000000000, 0.000000000000000000, -1.000000000000000000 ) ) ;
#321 = ORIENTED_EDGE ( 'NONE', *, *, #56, .F. ) ;
#322 = DIRECTION ( 'NONE',  ( 1.000000000000000000, 0.000000000000000000, -0.000000000000000000 ) ) ;
#323 = ORIENTED_EDGE ( 'NONE', *, *, #239, .F. ) ;
#324 = ORIENTED_EDGE ( 'NONE', *, *, #47, .F. ) ;
#325 = AXIS2_PLACEMENT_3D ( 'NONE', #187, #13, #247 ) ;
#326 = ORIENTED_EDGE ( 'NONE', *, *, #45, .T. ) ;
#327 = VERTEX_POINT ( 'NONE', #164 ) ;
ENDSEC;
END-ISO-10303-21;
